Menu
The Jazz Butcher Etc | Mailing List
The Jazz Butcher Conspiracy : Mailing List : 1995
[By Subject] [By Date] [By Sender] [Prev] [Next]
Date: Sun, 7 May 95 16:22:26 PDT
From: Tony Liano <tonyli[at]-remove-microsoft.com>
Subject: Olof Palmer

A while back, I put an all out request for guitar chords to JBC songs.

In my mail, I devulged I had figured out Olof Palmer, and the response
was overwhelming.

Being a self-taught musician, I had no idea what the "tab system" was...
However, Will was kind enough to explain it to me. Thanks, Will.

Cheers,
Tony

tonyli[at]-remove-microsoft.com

OLOF PALMER

(to decipher this mess, you should know I am assuming the index finger
is #1, middle finger #2, ring finger #3, and pinky #4. When you see a
bunch of "b's" that means bar chord. It's not the whole song but
you'll figure the rest out ... all chords you need are listed below.
Good luck.)


e---|---|---|---|-b-|----|-----| Western Europe still a
B---|---|---|---|-b-|----|-----|
G---|---|---|---|-b-|-2-|-----|
D---|---|---|---|-b-|----|-4--|
A---|---|---|---|-b-|----|-3--|
G---|---|---|---|-b-|----|-----|

e---|---|---|-b-|----|-----| civilized place
B---|---|---|-b-|----|-----|
G---|---|---|-b-|-2-|-----|
D---|---|---|-b-|----|-4--|
A---|---|---|-b-|----|-3--|
G---|---|---|-b-|----|-----|

e---|---|---|---|-b-|----|-----| Despite those
B---|---|---|---|-b-|----|-----|
G---|---|---|---|-b-|-2-|-----|
D---|---|---|---|-b-|----|-4--|
A---|---|---|---|-b-|----|-3--|
G---|---|---|---|-b-|----|-----|

e---|---|---|-b-|----|-----| Ameri -
B---|---|---|-b-|----|-----|
G---|---|---|-b-|-2-|-----|
D---|---|---|-b-|----|-4--|
A---|---|---|-b-|----|-3--|
G---|---|---|-b-|----|-----|

e---|---|-b-|----|-----| cans
B---|---|-b-|----|-----|
G---|---|-b-|-2-|-----|
D---|---|-b-|----|-4--|
A---|---|-b-|----|-3--|
G---|---|-b-|----|-----|

e---|-b-|----|-----| all over the place, buut
B---|-b-|----|-----|
G---|-b-|-2-|-----|
D---|-b-|----|-4--|
A---|-b-|----|-3--|
G---|-b-|----|-----|


e---|-2--|----|--- Just the other day,
B---|-----|-3-|---
G---|-1--|----|---
D---|----|-----|---
A---|----|----|---
G---|----|----|---

e---|-1--|----|--- I saw it take a lit-tle
B---|-----|-2-|---
G---|----|-3--|---
D---|----|-----|---
A---|----|----|---
G---|----|----|---

e---|-----|----|--- dive
B---|-----|-1-|---
G---|----|-2--|---
D---|----|-3--|---
A---|----|----|---
G---|----|----|---


Repeat.

If you can't figure out the chorus part - let me know.

Visitor Feedback
No comments yet for this page [Add your own]